  0
SECTION
  2
HEADER
  9
$ACADVER
  1
AC1009
  9
$INSBASE
 10
0.0
 20
0.0
 30
0.0
  9
$EXTMIN
 10
-2.6241009892090932
 20
0.4717930703832753
 30
0.0
  9
$EXTMAX
 10
8.0913335099996502
 20
23.711469210570741
 30
0.0
  9
$LIMMIN
 10
0.0
 20
0.0
  9
$LIMMAX
 10
12.0
 20
9.0
  9
$ORTHOMODE
 70
     0
  9
$REGENMODE
 70
     1
  9
$FILLMODE
 70
     1
  9
$QTEXTMODE
 70
     0
  9
$MIRRTEXT
 70
     1
  9
$DRAGMODE
 70
     2
  9
$LTSCALE
 40
0.6
  9
$OSMODE
 70
   111
  9
$ATTMODE
 70
     1
  9
$TEXTSIZE
 40
0.2
  9
$TRACEWID
 40
0.05
  9
$TEXTSTYLE
  7
ARIAL
  9
$CLAYER
  8
2-7
  9
$CELTYPE
  6
BYLAYER
  9
$CECOLOR
 62
   256
  9
$DIMSCALE
 40
1.0
  9
$DIMASZ
 40
0.125
  9
$DIMEXO
 40
0.0625
  9
$DIMDLI
 40
0.25
  9
$DIMRND
 40
0.0
  9
$DIMDLE
 40
0.0
  9
$DIMEXE
 40
0.125
  9
$DIMTP
 40
0.0
  9
$DIMTM
 40
0.0
  9
$DIMTXT
 40
0.125
  9
$DIMCEN
 40
0.09
  9
$DIMTSZ
 40
0.0
  9
$DIMTOL
 70
     0
  9
$DIMLIM
 70
     0
  9
$DIMTIH
 70
     1
  9
$DIMTOH
 70
     1
  9
$DIMSE1
 70
     0
  9
$DIMSE2
 70
     0
  9
$DIMTAD
 70
     0
  9
$DIMZIN
 70
     4
  9
$DIMBLK
  1

  9
$DIMASO
 70
     1
  9
$DIMSHO
 70
     1
  9
$DIMPOST
  1

  9
$DIMAPOST
  1

  9
$DIMALT
 70
     0
  9
$DIMALTD
 70
     2
  9
$DIMALTF
 40
25.399999999999999
  9
$DIMLFAC
 40
1.0
  9
$DIMTOFL
 70
     0
  9
$DIMTVP
 40
0.0
  9
$DIMTIX
 70
     0
  9
$DIMSOXD
 70
     0
  9
$DIMSAH
 70
     0
  9
$DIMBLK1
  1

  9
$DIMBLK2
  1

  9
$DIMSTYLE
  2
FRAC
  9
$DIMCLRD
 70
   256
  9
$DIMCLRE
 70
   256
  9
$DIMCLRT
 70
   256
  9
$DIMTFAC
 40
1.0
  9
$DIMGAP
 40
0.09
  9
$LUNITS
 70
     2
  9
$LUPREC
 70
     4
  9
$SKETCHINC
 40
0.1
  9
$FILLETRAD
 40
0.5
  9
$AUNITS
 70
     0
  9
$AUPREC
 70
     0
  9
$MENU
  1
.
  9
$ELEVATION
 40
0.0
  9
$PELEVATION
 40
0.0
  9
$THICKNESS
 40
0.0
  9
$LIMCHECK
 70
     0
  9
$BLIPMODE
 70
     0
  9
$CHAMFERA
 40
0.0
  9
$CHAMFERB
 40
0.0
  9
$SKPOLY
 70
     0
  9
$TDCREATE
 40
2452392.3517971062
  9
$TDUPDATE
 40
2452554.4616512731
  9
$TDINDWG
 40
0.228090162
  9
$TDUSRTIMER
 40
0.2280876157
  9
$USRTIMER
 70
     1
  9
$ANGBASE
 50
0.0
  9
$ANGDIR
 70
     0
  9
$PDMODE
 70
     3
  9
$PDSIZE
 40
0.0
  9
$PLINEWID
 40
0.0
  9
$COORDS
 70
     2
  9
$SPLFRAME
 70
     0
  9
$SPLINETYPE
 70
     6
  9
$SPLINESEGS
 70
     8
  9
$ATTDIA
 70
     0
  9
$ATTREQ
 70
     1
  9
$HANDLING
 70
  4097
  9
$HANDSEED
  5
B4F
  9
$SURFTAB1
 70
     6
  9
$SURFTAB2
 70
     6
  9
$SURFTYPE
 70
     6
  9
$SURFU
 70
     6
  9
$SURFV
 70
     6
  9
$UCSNAME
  2

  9
$UCSORG
 10
0.0
 20
0.0
 30
0.0
  9
$UCSXDIR
 10
1.0
 20
0.0
 30
0.0
  9
$UCSYDIR
 10
0.0
 20
1.0
 30
0.0
  9
$PUCSNAME
  2

  9
$PUCSORG
 10
0.0
 20
0.0
 30
0.0
  9
$PUCSXDIR
 10
1.0
 20
0.0
 30
0.0
  9
$PUCSYDIR
 10
0.0
 20
1.0
 30
0.0
  9
$USERI1
 70
     0
  9
$USERI2
 70
     0
  9
$USERI3
 70
     0
  9
$USERI4
 70
     0
  9
$USERI5
 70
     0
  9
$USERR1
 40
1.0
  9
$USERR2
 40
25.399999999999999
  9
$USERR3
 40
0.0
  9
$USERR4
 40
0.0
  9
$USERR5
 40
0.0
  9
$WORLDVIEW
 70
     1
  9
$SHADEDGE
 70
     3
  9
$SHADEDIF
 70
    70
  9
$TILEMODE
 70
     1
  9
$MAXACTVP
 70
    48
  9
$PLIMCHECK
 70
     0
  9
$PEXTMIN
 10
1.0000000000000000E+020
 20
1.0000000000000000E+020
 30
1.0000000000000000E+020
  9
$PEXTMAX
 10
-1.0000000000000000E+020
 20
-1.0000000000000000E+020
 30
-1.0000000000000000E+020
  9
$PLIMMIN
 10
0.0
 20
0.0
  9
$PLIMMAX
 10
12.0
 20
9.0
  9
$UNITMODE
 70
     0
  9
$VISRETAIN
 70
     1
  9
$PLINEGEN
 70
     0
  9
$PSLTSCALE
 70
     1
  0
ENDSEC
  0
SECTION
  2
TABLES
  0
TABLE
  2
VPORT
 70
     2
  0
VPORT
  2
*ACTIVE
 70
     0
 10
0.0
 20
0.0
 11
1.0
 21
1.0
 12
2.7260389573065691
 22
12.08935490806368
 13
0.0
 23
0.0
 14
0.5
 24
0.5
 15
0.5
 25
0.5
 16
0.0
 26
0.0
 36
1.0
 17
0.0
 27
0.0
 37
0.0
 40
23.92819732219467
 41
1.3665594855305461
 42
50.0
 43
0.0
 44
0.0
 50
0.0
 51
0.0
 71
     0
 72
   100
 73
     1
 74
     2
 75
     0
 76
     0
 77
     0
 78
     0
  0
ENDTAB
  0
TABLE
  2
LTYPE
 70
     3
  0
LTYPE
  2
CONTINUOUS
 70
     0
  3
Solid line
 72
    65
 73
     0
 40
0.0
  0
LTYPE
  2
CENTER
 70
     0
  3
Center ____ _ ____ _ ____ _ ____ _ ____ _ ____
 72
    65
 73
     4
 40
2.0
 49
1.25
 49
-0.25
 49
0.25
 49
-0.25
  0
LTYPE
  2
HIDDEN
 70
     0
  3
Hidden __ __ __ __ __ __ __ __ __ __ __ __ __ _
 72
    65
 73
     2
 40
0.375
 49
0.25
 49
-0.125
  0
ENDTAB
  0
TABLE
  2
LAYER
 70
     4
  0
LAYER
  2
0
 70
     0
 62
     7
  6
CONTINUOUS
  0
LAYER
  2
CENTERLINE
 70
     0
 62
     1
  6
CENTER
  0
LAYER
  2
2-7
 70
     0
 62
     2
  6
CONTINUOUS
  0
LAYER
  2
ADAPTER
 70
     0
 62
     3
  6
CONTINUOUS
  0
ENDTAB
  0
TABLE
  2
STYLE
 70
     2
  0
STYLE
  2
STANDARD
 70
     0
 40
0.0
 41
1.0
 50
0.0
 71
     0
 42
0.2
  3
txt
  4

  0
STYLE
  2
ARIAL
 70
     0
 40
0.0
 41
1.0
 50
0.0
 71
     0
 42
0.2
  3
txt
  4

  0
ENDTAB
  0
TABLE
  2
VIEW
 70
     0
  0
ENDTAB
  0
TABLE
  2
UCS
 70
     0
  0
ENDTAB
  0
TABLE
  2
APPID
 70
     1
  0
APPID
  2
ACAD
 70
     0
  0
ENDTAB
  0
TABLE
  2
DIMSTYLE
 70
     1
  0
DIMSTYLE
  2
FRAC
 70
     0
  3

  4

  5

  6

  7

 40
1.0
 41
0.125
 42
0.0625
 43
0.25
 44
0.125
 45
0.0
 46
0.0
 47
0.0
 48
0.0
140
0.125
141
0.09
142
0.0
143
25.399999999999999
144
1.0
145
0.0
146
1.0
147
0.09
 71
     0
 72
     0
 73
     1
 74
     1
 75
     0
 76
     0
 77
     0
 78
     4
170
     0
171
     2
172
     0
173
     0
174
     0
175
     0
176
   256
177
   256
178
   256
  0
ENDTAB
  0
ENDSEC
  0
SECTION
  2
BLOCKS
  0
BLOCK
  8
0
  2
$MODEL_SPACE
 70
     0
 10
0.0
 20
0.0
 30
0.0
  3
$MODEL_SPACE
  1

  0
ENDBLK
  5
21
  8
0
  0
BLOCK
 67
     1
  8
0
  2
$PAPER_SPACE
 70
     0
 10
0.0
 20
0.0
 30
0.0
  3
$PAPER_SPACE
  1

  0
ENDBLK
  5
1D
 67
     1
  8
0
  0
ENDSEC
  0
SECTION
  2
ENTITIES
  0
LINE
  5
D3
  8
2-7
 10
2.7446191512787652
 20
2.4796671503832748
 30
0.0
 11
6.6776901432787641
 21
2.4796671503832761
 31
0.0
  0
LINE
  5
18B
  8
ADAPTER
 10
-0.1374023425565852
 20
7.8009271631832764
 30
0.0
 11
5.6046348633471483
 21
7.8009271631832764
 31
0.0
  0
LINE
  5
1D3
  8
ADAPTER
 10
1.272986292395281
 20
10.14108471838327
 30
0.0
 11
4.1942462283952811
 21
10.14108471838327
 31
0.0
  0
LINE
  5
1D5
  8
ADAPTER
 10
1.272986292395281
 20
10.14108471838327
 30
0.0
 11
1.272986292395281
 21
7.8009271631832746
 31
0.0
  0
LINE
  5
1D6
  8
ADAPTER
 10
4.1942462283952811
 20
10.14108471838327
 30
0.0
 11
4.1942462283952811
 21
10.042659518383269
 31
0.0
  0
LINE
  5
1D7
  8
ADAPTER
 10
3.648576919595282
 20
10.042659518383269
 30
0.0
 11
4.6328289195952808
 21
10.042659518383269
 31
0.0
  0
LINE
  5
1D8
  8
ADAPTER
 10
4.6328289195952808
 20
10.042659518383269
 30
0.0
 11
4.6328289195952808
 21
8.7139193183832742
 31
0.0
  0
LINE
  5
1D9
  8
ADAPTER
 10
4.6328289195952808
 20
8.7139193183832742
 30
0.0
 11
3.6485769195952811
 21
8.7139193183832742
 31
0.0
  0
LINE
  5
1DA
  8
ADAPTER
  6
HIDDEN
 10
3.6485769195952811
 20
10.042659518383269
 30
0.0
 11
3.6485769195952811
 21
8.7139193183832742
 31
0.0
  0
LINE
  5
1DB
  8
ADAPTER
 10
4.1942462283952819
 20
8.7139193183832742
 30
0.0
 11
4.1942462283952811
 21
7.8009271631832746
 31
0.0
  0
CIRCLE
  5
1DC
  8
ADAPTER
 10
4.3403800913392807
 20
9.3782894183832752
 30
0.0
 40
0.219347573948256
  0
POLYLINE
  5
1DD
  8
ADAPTER
 66
     1
 10
0.0
 20
0.0
 30
0.0
 70
     1
  0
VERTEX
  5
B33
  8
ADAPTER
 10
4.2039981427153101
 20
9.6145098826352431
 30
0.0
  0
VERTEX
  5
B34
  8
ADAPTER
 10
4.0676161940913369
 20
9.3782894183832752
 30
0.0
  0
VERTEX
  5
B35
  8
ADAPTER
 10
4.2039981427153092
 20
9.1420689541313074
 30
0.0
  0
VERTEX
  5
B36
  8
ADAPTER
 10
4.4767620399632531
 20
9.1420689541313074
 30
0.0
  0
VERTEX
  5
B37
  8
ADAPTER
 10
4.6131439885872263
 20
9.3782894183832752
 30
0.0
  0
VERTEX
  5
B38
  8
ADAPTER
 10
4.4767620399632531
 20
9.6145098826352431
 30
0.0
  0
SEQEND
  5
B39
  8
ADAPTER
  0
CIRCLE
  5
1DE
  8
ADAPTER
 10
2.7336162603952801
 20
19.065799770570742
 30
0.0
 40
1.460629967999999
  0
LINE
  5
225
  8
ADAPTER
 10
-0.1374023425565852
 20
7.400927150383275
 30
0.0
 11
5.6046348633471483
 21
7.4009271503832759
 31
0.0
  0
LINE
  5
226
  8
ADAPTER
 10
4.6328289195952799
 20
19.86304389057074
 30
0.0
 11
4.6328289195952799
 21
18.26855565057074
 31
0.0
  0
LINE
  5
270
  8
ADAPTER
 10
4.6328289195952799
 20
19.86304389057074
 30
0.0
 11
3.2900399623952441
 21
20.416293223821189
 31
0.0
  0
LINE
  5
271
  8
ADAPTER
 10
4.0184010243043584
 20
18.01540207675151
 30
0.0
 11
3.2900399623952441
 21
17.71530631732028
 31
0.0
  0
LINE
  5
272
  8
ADAPTER
 10
4.6328289195952799
 20
18.26855565057074
 30
0.0
 11
4.0184010243043584
 21
18.26855565057074
 31
0.0
  0
LINE
  5
273
  8
ADAPTER
 10
4.0184010243043584
 20
18.26855565057074
 30
0.0
 11
4.0184010243043584
 21
18.01540207675151
 31
0.0
  0
LINE
  5
276
  8
ADAPTER
 10
4.6131439885872227
 20
18.20950053057074
 30
0.0
 11
4.6131439885872227
 21
17.9635820920968
 31
0.0
  0
LINE
  5
277
  8
ADAPTER
 10
4.4767620399632522
 20
18.20950053057074
 30
0.0
 11
4.4767620399632522
 21
17.9635820920968
 31
0.0
  0
LINE
  5
278
  8
ADAPTER
 10
4.2039981427153066
 20
18.20950053057074
 30
0.0
 11
4.2039981427153066
 21
17.9635820920968
 31
0.0
  0
LINE
  5
279
  8
ADAPTER
 10
4.0676161940913351
 20
18.20950053057074
 30
0.0
 11
4.0676161940913351
 21
17.9635820920968
 31
0.0
  0
LINE
  5
27B
  8
ADAPTER
 10
4.0479311540913354
 20
18.20950053057074
 30
0.0
 11
4.6328290285872233
 21
18.20950053057074
 31
0.0
  0
LINE
  5
27C
  8
ADAPTER
 10
4.0479311540913354
 20
18.20950053057074
 30
0.0
 11
4.0479311540913354
 21
18.26855565057074
 31
0.0
  0
LINE
  5
27D
  8
ADAPTER
 10
4.6328290285872233
 20
18.20950053057074
 30
0.0
 11
4.6328290285872233
 21
18.26855565057074
 31
0.0
  0
LINE
  5
27F
  8
ADAPTER
 10
4.1358071684033222
 20
17.92749355178416
 30
0.0
 11
4.5449530142752357
 21
17.92749355178416
 31
0.0
  0
ARC
  5
280
  8
ADAPTER
 10
4.1358071684033222
 20
18.009962829676098
 30
0.0
 40
0.0824692778919425
 50
214.2219499523211
 51
325.77805004767828
  0
ARC
  5
282
  8
ADAPTER
 10
4.5449530142752357
 20
18.009962829676098
 30
0.0
 40
0.0824692778919425
 50
214.22194995232161
 51
325.7780500476789
  0
ARC
  5
283
  8
ADAPTER
 10
4.3403800913392852
 20
18.203237852882982
 30
0.0
 40
0.2757443010988207
 50
240.356905410038
 51
299.6430945899599
  0
LINE
  5
3BA
  8
2-7
 10
4.2792784469352263
 20
2.0816075192595398
 30
0.0
 11
5.1430308476223026
 21
2.0816075192595411
 31
0.0
  0
LINE
  5
3BB
  8
2-7
 10
5.1537170122162284
 20
2.460966362343906
 30
0.0
 11
4.2685922823412996
 21
2.460966362343906
 31
0.0
  0
ARC
  5
3BC
  8
2-7
 10
4.7111546472787644
 20
2.109436072889554
 30
0.0
 40
0.3484134914477874
 50
184.5812200852769
 51
355.41877991472307
  0
LINE
  5
3BD
  8
2-7
 10
5.1430308476223026
 20
2.0816075192595411
 30
0.0
 11
5.1430308476223026
 21
2.460966362343906
 31
0.0
  0
LINE
  5
3BE
  8
2-7
 10
5.1537170122162284
 20
2.460966362343906
 30
0.0
 11
5.1537170122162284
 21
2.4796671503832761
 31
0.0
  0
LINE
  5
3BF
  8
2-7
 10
4.9270927474505344
 20
2.0816075192595411
 30
0.0
 11
4.9270927474505344
 21
2.460966362343906
 31
0.0
  0
LINE
  5
3C0
  8
2-7
 10
4.4952165471069954
 20
2.0816075192595411
 30
0.0
 11
4.4952165471069954
 21
2.460966362343906
 31
0.0
  0
LINE
  5
3C1
  8
2-7
 10
4.2792784469352263
 20
2.0816075192595398
 30
0.0
 11
4.2792784469352263
 21
2.460966362343906
 31
0.0
  0
LINE
  5
3C2
  8
2-7
 10
4.2685922823412996
 20
2.460966362343906
 30
0.0
 11
4.2685922823412996
 21
2.4796671503832761
 31
0.0
  0
LINE
  5
3C8
  8
2-7
 10
-1.893919483457531
 20
7.400927150383275
 30
0.0
 11
7.3611520042480896
 21
7.400927150383275
 31
0.0
  0
LINE
  5
564
  8
2-7
  6
HIDDEN
 10
2.1824351403952811
 20
7.8733681103832751
 30
0.0
 11
2.5367658603952821
 21
7.8733681103832751
 31
0.0
  0
LINE
  5
566
  8
2-7
  6
HIDDEN
 10
3.2847973803952821
 20
7.8733681103832751
 30
0.0
 11
3.2847973803952821
 21
7.4009271503832768
 31
0.0
  0
LINE
  5
567
  8
2-7
  6
HIDDEN
 10
2.1824351403952811
 20
7.8733681103832751
 30
0.0
 11
2.1824351403952811
 21
7.4009271503832759
 31
0.0
  0
LINE
  5
569
  8
2-7
  6
HIDDEN
 10
2.930466660395282
 20
7.8733681103832751
 30
0.0
 11
2.930466660395282
 21
7.4796673103832747
 31
0.0
  0
LINE
  5
56A
  8
2-7
  6
HIDDEN
 10
2.930466660395282
 20
7.4796673103832747
 30
0.0
 11
2.5367658603952821
 21
7.4796673103832747
 31
0.0
  0
LINE
  5
56B
  8
2-7
  6
HIDDEN
 10
2.5367658603952821
 20
7.4796673103832747
 30
0.0
 11
2.5367658603952821
 21
7.8733681103832751
 31
0.0
  0
LINE
  5
56C
  8
2-7
  6
HIDDEN
 10
2.930466660395282
 20
7.8733681103832751
 30
0.0
 11
3.2847973803952821
 21
7.8733681103832751
 31
0.0
  0
LINE
  5
6EE
  8
2-7
  6
HIDDEN
 10
4.6922530102893907
 20
3.6607695503832751
 30
0.0
 11
4.6922530102893907
 21
7.4009271503832759
 31
0.0
  0
LINE
  5
6EF
  8
2-7
 10
7.3611520042480887
 20
3.660769550383276
 30
0.0
 11
7.3611520042480896
 21
7.4009271503832768
 31
0.0
  0
LINE
  5
6F1
  8
2-7
 10
-1.893919483457531
 20
3.6607695503832751
 30
0.0
 11
7.3611520042480887
 21
3.6607695503832751
 31
0.0
  0
LINE
  5
6F2
  8
2-7
 10
6.6776901432787632
 20
3.660769550383276
 30
0.0
 11
6.6776901432787641
 21
2.4796671503832761
 31
0.0
  0
LINE
  5
6F4
  8
2-7
 10
2.7446191512787661
 20
3.6607695503832751
 30
0.0
 11
2.7446191512787652
 21
2.4796671503832748
 31
0.0
  0
LINE
  5
6F5
  8
2-7
 10
2.9134060495499461
 20
0.4717930703832753
 30
0.0
 11
4.3267919215499457
 21
0.4717930703832753
 31
0.0
  0
LINE
  5
6F7
  8
2-7
 10
4.3267919215499457
 20
2.0816075192595398
 30
0.0
 11
4.3267919215499457
 21
0.4717930703832753
 31
0.0
  0
LINE
  5
6F9
  8
2-7
 10
2.9134060495499461
 20
2.4796671503832748
 30
0.0
 11
2.9134060495499461
 21
0.4717930703832753
 31
0.0
  0
LINE
  5
712
  8
ADAPTER
 10
5.6046348633471483
 20
7.8009271631832764
 30
0.0
 11
5.6046348633471483
 21
7.4009271503832759
 31
0.0
  0
LINE
  5
713
  8
ADAPTER
 10
-0.1374023425565852
 20
7.8009271631832764
 30
0.0
 11
-0.1374023425565852
 21
7.400927150383275
 31
0.0
  0
CIRCLE
  5
851
  8
2-7
  6
HIDDEN
 10
2.7336162603952801
 20
22.609106970570728
 30
0.0
 40
0.7066929360000001
  0
CIRCLE
  5
852
  8
2-7
  6
HIDDEN
 10
2.7336162603952801
 20
20.089421850570741
 30
0.0
 40
0.7066929360000001
  0
POLYLINE
  5
853
  8
2-7
  6
HIDDEN
 66
     1
 10
0.0
 20
0.0
 30
0.0
 70
     1
  0
VERTEX
  5
B3A
  8
2-7
  6
HIDDEN
 10
2.3596004996078781
 20
21.565202510742509
 30
0.0
  0
VERTEX
  5
B3B
  8
2-7
  6
HIDDEN
 10
2.7336162603952792
 20
21.781140610914271
 30
0.0
  0
VERTEX
  5
B3C
  8
2-7
  6
HIDDEN
 10
3.1076320211826811
 20
21.565202510742509
 30
0.0
  0
VERTEX
  5
B3D
  8
2-7
  6
HIDDEN
 10
3.1076320211826811
 20
21.13332631039896
 30
0.0
  0
VERTEX
  5
B3E
  8
2-7
  6
HIDDEN
 10
2.7336162603952792
 20
20.917388210227191
 30
0.0
  0
VERTEX
  5
B3F
  8
2-7
  6
HIDDEN
 10
2.3596004996078781
 20
21.13332631039896
 30
0.0
  0
SEQEND
  5
B40
  8
2-7
  6
HIDDEN
  0
CIRCLE
  5
854
  8
2-7
  6
HIDDEN
 10
2.7336162603952801
 20
21.349264410570729
 30
0.0
 40
0.3473003493025872
  0
CIRCLE
  5
855
  8
2-7
  6
HIDDEN
 10
2.7336162603952801
 20
21.349264410570729
 30
0.0
 40
1.966535495999999
  0
CIRCLE
  5
857
  8
2-7
  6
HIDDEN
 10
-0.3349777882170226
 20
17.294146170570741
 30
0.0
 40
0.7066929360000001
  0
CIRCLE
  5
858
  8
2-7
  6
HIDDEN
 10
1.8471335352406171
 20
18.55398873057074
 30
0.0
 40
0.7066929360000001
  0
CIRCLE
  5
859
  8
2-7
  6
HIDDEN
 10
0.7560778735117992
 20
17.924067450570739
 30
0.0
 40
0.3473003493025872
  0
POLYLINE
  5
85A
  8
2-7
  6
HIDDEN
 66
     1
 10
0.0
 20
0.0
 30
0.0
 70
     1
  0
VERTEX
  5
B41
  8
2-7
  6
HIDDEN
 10
0.7560778735117947
 20
17.492191250227201
 30
0.0
  0
VERTEX
  5
B42
  8
2-7
  6
HIDDEN
 10
0.3820621127243946
 20
17.70812935039897
 30
0.0
  0
VERTEX
  5
B43
  8
2-7
  6
HIDDEN
 10
0.3820621127243946
 20
18.140005550742501
 30
0.0
  0
VERTEX
  5
B44
  8
2-7
  6
HIDDEN
 10
0.756077873511797
 20
18.35594365091427
 30
0.0
  0
VERTEX
  5
B45
  8
2-7
  6
HIDDEN
 10
1.130093634299199
 20
18.140005550742501
 30
0.0
  0
VERTEX
  5
B46
  8
2-7
  6
HIDDEN
 10
1.1300936342991961
 20
17.70812935039897
 30
0.0
  0
SEQEND
  5
B47
  8
2-7
  6
HIDDEN
  0
CIRCLE
  5
85B
  8
2-7
  6
HIDDEN
 10
0.7560778735117992
 20
17.924067450570739
 30
0.0
 40
1.966535495999999
  0
CIRCLE
  5
85C
  8
2-7
  6
HIDDEN
 10
5.8022103090075854
 20
17.29414617057073
 30
0.0
 40
0.7066929360000001
  0
CIRCLE
  5
85D
  8
2-7
  6
HIDDEN
 10
3.6200989855499461
 20
18.55398873057073
 30
0.0
 40
0.7066929360000001
  0
CIRCLE
  5
85E
  8
2-7
  6
HIDDEN
 10
4.7111546472787644
 20
17.924067450570728
 30
0.0
 40
0.3473003493025872
  0
POLYLINE
  5
85F
  8
2-7
  6
HIDDEN
 66
     1
 10
0.0
 20
0.0
 30
0.0
 70
     1
  0
VERTEX
  5
B48
  8
2-7
  6
HIDDEN
 10
5.0851704080661673
 20
18.140005550742501
 30
0.0
  0
VERTEX
  5
B49
  8
2-7
  6
HIDDEN
 10
5.0851704080661673
 20
17.70812935039897
 30
0.0
  0
VERTEX
  5
B4A
  8
2-7
  6
HIDDEN
 10
4.7111546472787644
 20
17.492191250227201
 30
0.0
  0
VERTEX
  5
B4B
  8
2-7
  6
HIDDEN
 10
4.3371388864913616
 20
17.70812935039897
 30
0.0
  0
VERTEX
  5
B4C
  8
2-7
  6
HIDDEN
 10
4.3371388864913616
 20
18.140005550742501
 30
0.0
  0
VERTEX
  5
B4D
  8
2-7
  6
HIDDEN
 10
4.7111546472787644
 20
18.35594365091427
 30
0.0
  0
SEQEND
  5
B4E
  8
2-7
  6
HIDDEN
  0
CIRCLE
  5
860
  8
2-7
  6
HIDDEN
 10
4.7111546472787644
 20
17.924067450570728
 30
0.0
 40
1.966535495999999
  0
CIRCLE
  5
861
  8
CENTERLINE
 10
2.7336162603952801
 20
19.065799770570742
 30
0.0
 40
1.0236220799999991
  0
CIRCLE
  5
862
  8
CENTERLINE
 10
2.7336162603952801
 20
19.065799770570742
 30
0.0
 40
3.543307199999997
  0
CIRCLE
  5
863
  8
ADAPTER
 10
2.7336162603952801
 20
19.065799770570742
 30
0.0
 40
2.8710186029518652
  0
ARC
  5
864
  8
2-7
 10
2.7336162603952801
 20
19.065799770570742
 30
0.0
 40
4.6456694399999989
 50
54.935949669080657
 51
125.0640503309192
  0
LINE
  5
866
  8
2-7
 10
0.7749795105011598
 20
14.853201210570729
 30
0.0
 11
4.6922530102893969
 21
14.853201210570729
 31
0.0
  0
LINE
  5
867
  8
2-7
 10
7.3611520042480896
 20
19.475869868376641
 30
0.0
 11
5.402515254353971
 21
22.868328232764831
 31
0.0
  0
LINE
  5
868
  8
2-7
 10
0.064717266436592
 20
22.868328232764831
 30
0.0
 11
-1.893919483457531
 21
19.475869868376648
 31
0.0
  0
ARC
  5
869
  8
2-7
 10
2.7336162603952801
 20
19.065799770570742
 30
0.0
 40
4.6456694399999989
 50
174.93594966908049
 51
245.06405033091929
  0
ARC
  5
86A
  8
2-7
 10
2.7336162603952801
 20
19.065799770570742
 30
0.0
 40
4.6456694399999989
 50
294.93594966908051
 51
5.0640503309192839
  0
LINE
  5
86B
  8
2-7
  6
HIDDEN
 10
0.7749795105011668
 20
3.6607695503832751
 30
0.0
 11
0.7749795105011668
 21
7.4009271503832759
 31
0.0
  0
LINE
  5
86C
  8
2-7
 10
-1.893919483457531
 20
3.660769550383276
 30
0.0
 11
-1.8939194834575319
 21
7.4009271503832768
 31
0.0
  0
LINE
  5
86D
  8
2-7
 10
2.7226133695117931
 20
2.4796671503832748
 30
0.0
 11
-1.2104576224882051
 21
2.4796671503832761
 31
0.0
  0
LINE
  5
86E
  8
2-7
 10
2.7226133695117918
 20
3.6607695503832751
 30
0.0
 11
2.7226133695117931
 21
2.4796671503832748
 31
0.0
  0
LINE
  5
86F
  8
2-7
 10
2.5538264712406118
 20
0.4717930703832753
 30
0.0
 11
1.140440599240611
 21
0.4717930703832753
 31
0.0
  0
LINE
  5
870
  8
2-7
 10
2.5538264712406118
 20
2.4796671503832748
 30
0.0
 11
2.5538264712406118
 21
0.4717930703832753
 31
0.0
  0
LINE
  5
871
  8
2-7
 10
1.140440599240611
 20
2.0816075192595398
 30
0.0
 11
1.140440599240611
 21
0.4717930703832753
 31
0.0
  0
LINE
  5
872
  8
2-7
 10
1.187954073855332
 20
2.0816075192595398
 30
0.0
 11
0.3242016731682548
 21
2.0816075192595411
 31
0.0
  0
LINE
  5
873
  8
2-7
 10
0.3135155085743295
 20
2.460966362343906
 30
0.0
 11
1.1986402384492569
 21
2.460966362343906
 31
0.0
  0
ARC
  5
874
  8
2-7
 10
0.7560778735117936
 20
2.109436072889554
 30
0.0
 40
0.3484134914477874
 50
184.5812200852769
 51
355.41877991472302
  0
LINE
  5
875
  8
2-7
 10
0.9720159736835627
 20
2.0816075192595411
 30
0.0
 11
0.9720159736835627
 21
2.460966362343906
 31
0.0
  0
LINE
  5
876
  8
2-7
 10
1.187954073855332
 20
2.0816075192595398
 30
0.0
 11
1.187954073855332
 21
2.460966362343906
 31
0.0
  0
LINE
  5
877
  8
2-7
 10
1.1986402384492569
 20
2.460966362343906
 30
0.0
 11
1.1986402384492569
 21
2.4796671503832761
 31
0.0
  0
LINE
  5
878
  8
2-7
 10
0.5401397733400242
 20
2.0816075192595411
 30
0.0
 11
0.5401397733400242
 21
2.460966362343906
 31
0.0
  0
LINE
  5
879
  8
2-7
 10
0.3242016731682548
 20
2.0816075192595411
 30
0.0
 11
0.3242016731682548
 21
2.460966362343906
 31
0.0
  0
LINE
  5
87A
  8
2-7
 10
0.3135155085743295
 20
2.460966362343906
 30
0.0
 11
0.3135155085743295
 21
2.4796671503832761
 31
0.0
  0
LINE
  5
87B
  8
2-7
 10
-1.210457622488204
 20
3.660769550383276
 30
0.0
 11
-1.2104576224882051
 21
2.4796671503832761
 31
0.0
  0
LINE
  5
87C
  8
2-7
  6
HIDDEN
 10
2.02692332439528
 20
0.4717930703832753
 30
0.0
 11
3.4403091963952801
 21
0.4717930703832753
 31
0.0
  0
LINE
  5
87D
  8
2-7
  6
HIDDEN
 10
2.02692332439528
 20
2.4796671503832748
 30
0.0
 11
2.02692332439528
 21
0.4717930703832753
 31
0.0
  0
LINE
  5
87E
  8
2-7
  6
HIDDEN
 10
3.440309196395281
 20
2.4796671503832748
 30
0.0
 11
3.4403091963952801
 21
0.4717930703832753
 31
0.0
  0
TEXT
  5
AEC
  8
0
 10
-0.4383503836607901
 20
12.281469110325579
 30
0.0
 40
0.125
  1
THE ADAPTER SHOWN IN THIS DRAWING IS ONLY TO ILLUSTRATE A TYPICAL ADAPTER
  7
ARIAL
  0
ENDSEC
  0
EOF
